ANZAC Last Post

Apr 14, 2015

My ANZAC Day Memorial tribute, Recorded 06/04/2015, Last Post Dates from from about the 17th century It signalled to those who were still out and wounded or separated that the fighting was done, and to follow the sound of the call to find safety and rest. and The summoning of the spirits of the Fallen to the cenotaph. Recorded on an Electric Guitar, using standard tuning in Bb key

This video was made for ANZAC Day 2015 and is free to use for non profit use with out any written consent but if used for any way to generate revenue by use of this content or part of this content with out written consent I will get very cross indeed.

Guitar Tab

e|----------|---------|----------------10--------------|-10-13-10----13-10----13-10-----------------|
B|----------|---------|-------------11-----------------|----------11-------11-------11--------------|
G|-----10H--|----10H--|----10-10-10-------10-10-10-10--|-------------------------------10-10-10-10--|
D|----------|---------|--------------------------------|--------------------------------------------|
A|--13------|-13------|-13-----------------------------|--------------------------------------------|
E|----------|---------|--------------------------------|--------------------------------------------|

e|-13-10-------10-------10-------10----------10----------------10-10----------|
B|-------11-------11-------11-------11-11-------11-------11-11-------11H------|
G|----------10-------10-------10----------10-------10-10----------------------|
D|----------------------------------------------------------------------------|
A|----------------------------------------------------------------------------|
E|----------------------------------------------------------------------------|

e|----10-13-10------------------|--------------10---------------10----|----------10----10------|
B|-------------11---------------|-------11111111--11----11111111--11--|-------11----11----11H--|
G|-10-------------10-10-10-10H--|-10-10-------------1010--------------|-10-10------------------|
D|------------------------------|-------------------------------------|------------------------|
A|------------------------------|-------------------------------------|------------------------|
E|------------------------------|-------------------------------------|------------------------|

e|----10-13-10-----------------|-13-10----13-10-----------------|---------|---------|
B|-------------11--------------|-------11-------11--------------|----11H--|----11H--|
G|-10-------------10-10-10-10--|-------------------10-10-10-10--|---------|---------|
D|-----------------------------|--------------------------------|-13------|-13------|
A|-----------------------------|--------------------------------|---------|---------|
E|-----------------------------|--------------------------------|---------|---------|

e|---------------------|-10H--|---------------------------------------------------|
B|----------------11H--|------|---------------------------------------------------|
G|----10-10-10-10------|------|---------------------------------------------------|
D|-13------------------|------|---------------------------------------------------|
A|---------------------|------|---------------------------------------------------|
E|---------------------|------|---------------------------------------------------|

Link to the tab summitted to Ultimate Guitar by me.

Back to 42




Copyright © FUZZY KAOS
Copyright © Retro Photography

img
img
img
img
img
img
img
img